ISO-10303-21;
HEADER;
/* Generated by software containing ST-Developer
 * from STEP Tools, Inc. (www.steptools.com) 
 */
/* OPTION: using custom renumber hook */

FILE_DESCRIPTION(
/* description */ ('STEP AP242',
'CAx-IF Rec.Pracs.---Representation and Presentation of Product Manufa
cturing Information (PMI)---4.0---2014-10-13',
'CAx-IF Rec.Pracs.---3D Tessellated Geometry---0.4---2014-09-14','2;1'),

/* implementation_level */ '2;1');

FILE_NAME(
/* name */ '62431935396baf385415cc0a',
/* time_stamp */ '2022-03-29T14:35:34+00:00',
/* author */ (''),
/* organization */ (''),
/* preprocessor_version */ 'ST-DEVELOPER v18.101',
/* originating_system */ '  ',
/* authorisation */ '  ');

FILE_SCHEMA (('AP242_MANAGED_MODEL_BASED_3D_ENGINEERING_MIM_LF { 1 0 10303 442 1 1 4 }'));
ENDSEC;

DATA;
#10=SHAPE_REPRESENTATION_RELATIONSHIP('','',#431,#11);
#11=ADVANCED_BREP_SHAPE_REPRESENTATION('',(#429),#725);
#12=CYLINDRICAL_SURFACE('',#443,0.00285000010175027);
#13=CYLINDRICAL_SURFACE('',#447,0.00285);
#14=CYLINDRICAL_SURFACE('',#451,0.00285);
#15=CYLINDRICAL_SURFACE('',#455,0.00135);
#16=CYLINDRICAL_SURFACE('',#458,0.00135);
#17=CYLINDRICAL_SURFACE('',#461,0.00135);
#18=CYLINDRICAL_SURFACE('',#464,0.00285);
#19=CYLINDRICAL_SURFACE('',#467,0.00135);
#20=CIRCLE('',#434,0.00285);
#21=CIRCLE('',#435,0.00285);
#22=CIRCLE('',#436,0.00285);
#23=CIRCLE('',#437,0.00285000010175027);
#24=CIRCLE('',#438,0.00285000010175027);
#25=CIRCLE('',#439,0.00285);
#26=CIRCLE('',#440,0.00285);
#27=CIRCLE('',#441,0.00285);
#28=CIRCLE('',#444,0.00285000010175027);
#29=CIRCLE('',#445,0.00285000010175027);
#30=CIRCLE('',#448,0.00285);
#31=CIRCLE('',#449,0.00285);
#32=CIRCLE('',#452,0.00285);
#33=CIRCLE('',#453,0.00285);
#34=CIRCLE('',#456,0.00135);
#35=CIRCLE('',#457,0.00135);
#36=CIRCLE('',#459,0.00135);
#37=CIRCLE('',#460,0.00135);
#38=CIRCLE('',#462,0.00135);
#39=CIRCLE('',#463,0.00135);
#40=CIRCLE('',#465,0.00285);
#41=CIRCLE('',#466,0.00285);
#42=CIRCLE('',#468,0.00135);
#43=CIRCLE('',#469,0.00135);
#44=ORIENTED_EDGE('',*,*,#156,.F.);
#45=ORIENTED_EDGE('',*,*,#157,.T.);
#46=ORIENTED_EDGE('',*,*,#158,.F.);
#47=ORIENTED_EDGE('',*,*,#159,.T.);
#48=ORIENTED_EDGE('',*,*,#160,.F.);
#49=ORIENTED_EDGE('',*,*,#161,.F.);
#50=ORIENTED_EDGE('',*,*,#162,.F.);
#51=ORIENTED_EDGE('',*,*,#163,.F.);
#52=ORIENTED_EDGE('',*,*,#164,.T.);
#53=ORIENTED_EDGE('',*,*,#165,.T.);
#54=ORIENTED_EDGE('',*,*,#166,.T.);
#55=ORIENTED_EDGE('',*,*,#167,.T.);
#56=ORIENTED_EDGE('',*,*,#168,.T.);
#57=ORIENTED_EDGE('',*,*,#169,.F.);
#58=ORIENTED_EDGE('',*,*,#170,.F.);
#59=ORIENTED_EDGE('',*,*,#171,.F.);
#60=ORIENTED_EDGE('',*,*,#166,.F.);
#61=ORIENTED_EDGE('',*,*,#172,.F.);
#62=ORIENTED_EDGE('',*,*,#173,.T.);
#63=ORIENTED_EDGE('',*,*,#174,.T.);
#64=ORIENTED_EDGE('',*,*,#172,.T.);
#65=ORIENTED_EDGE('',*,*,#165,.F.);
#66=ORIENTED_EDGE('',*,*,#175,.F.);
#67=ORIENTED_EDGE('',*,*,#176,.T.);
#68=ORIENTED_EDGE('',*,*,#177,.T.);
#69=ORIENTED_EDGE('',*,*,#163,.T.);
#70=ORIENTED_EDGE('',*,*,#178,.F.);
#71=ORIENTED_EDGE('',*,*,#179,.F.);
#72=ORIENTED_EDGE('',*,*,#162,.T.);
#73=ORIENTED_EDGE('',*,*,#180,.F.);
#74=ORIENTED_EDGE('',*,*,#181,.F.);
#75=ORIENTED_EDGE('',*,*,#178,.T.);
#76=ORIENTED_EDGE('',*,*,#161,.T.);
#77=ORIENTED_EDGE('',*,*,#182,.F.);
#78=ORIENTED_EDGE('',*,*,#183,.T.);
#79=ORIENTED_EDGE('',*,*,#184,.T.);
#80=ORIENTED_EDGE('',*,*,#159,.F.);
#81=ORIENTED_EDGE('',*,*,#185,.F.);
#82=ORIENTED_EDGE('',*,*,#186,.F.);
#83=ORIENTED_EDGE('',*,*,#180,.T.);
#84=ORIENTED_EDGE('',*,*,#158,.T.);
#85=ORIENTED_EDGE('',*,*,#187,.F.);
#86=ORIENTED_EDGE('',*,*,#188,.F.);
#87=ORIENTED_EDGE('',*,*,#185,.T.);
#88=ORIENTED_EDGE('',*,*,#187,.T.);
#89=ORIENTED_EDGE('',*,*,#157,.F.);
#90=ORIENTED_EDGE('',*,*,#189,.F.);
#91=ORIENTED_EDGE('',*,*,#190,.T.);
#92=ORIENTED_EDGE('',*,*,#191,.T.);
#93=ORIENTED_EDGE('',*,*,#171,.T.);
#94=ORIENTED_EDGE('',*,*,#192,.F.);
#95=ORIENTED_EDGE('',*,*,#193,.F.);
#96=ORIENTED_EDGE('',*,*,#170,.T.);
#97=ORIENTED_EDGE('',*,*,#194,.F.);
#98=ORIENTED_EDGE('',*,*,#195,.F.);
#99=ORIENTED_EDGE('',*,*,#192,.T.);
#100=ORIENTED_EDGE('',*,*,#196,.T.);
#101=ORIENTED_EDGE('',*,*,#197,.F.);
#102=ORIENTED_EDGE('',*,*,#198,.T.);
#103=ORIENTED_EDGE('',*,*,#199,.F.);
#104=ORIENTED_EDGE('',*,*,#200,.T.);
#105=ORIENTED_EDGE('',*,*,#201,.F.);
#106=ORIENTED_EDGE('',*,*,#169,.T.);
#107=ORIENTED_EDGE('',*,*,#202,.F.);
#108=ORIENTED_EDGE('',*,*,#203,.T.);
#109=ORIENTED_EDGE('',*,*,#204,.T.);
#110=ORIENTED_EDGE('',*,*,#167,.F.);
#111=ORIENTED_EDGE('',*,*,#174,.F.);
#112=ORIENTED_EDGE('',*,*,#205,.F.);
#113=ORIENTED_EDGE('',*,*,#194,.T.);
#114=ORIENTED_EDGE('',*,*,#206,.T.);
#115=ORIENTED_EDGE('',*,*,#207,.F.);
#116=ORIENTED_EDGE('',*,*,#173,.F.);
#117=ORIENTED_EDGE('',*,*,#179,.T.);
#118=ORIENTED_EDGE('',*,*,#181,.T.);
#119=ORIENTED_EDGE('',*,*,#186,.T.);
#120=ORIENTED_EDGE('',*,*,#188,.T.);
#121=ORIENTED_EDGE('',*,*,#193,.T.);
#122=ORIENTED_EDGE('',*,*,#195,.T.);
#123=ORIENTED_EDGE('',*,*,#205,.T.);
#124=ORIENTED_EDGE('',*,*,#200,.F.);
#125=ORIENTED_EDGE('',*,*,#198,.F.);
#126=ORIENTED_EDGE('',*,*,#196,.F.);
#127=ORIENTED_EDGE('',*,*,#206,.F.);
#128=ORIENTED_EDGE('',*,*,#164,.F.);
#129=ORIENTED_EDGE('',*,*,#177,.F.);
#130=ORIENTED_EDGE('',*,*,#208,.T.);
#131=ORIENTED_EDGE('',*,*,#175,.T.);
#132=ORIENTED_EDGE('',*,*,#208,.F.);
#133=ORIENTED_EDGE('',*,*,#176,.F.);
#134=ORIENTED_EDGE('',*,*,#201,.T.);
#135=ORIENTED_EDGE('',*,*,#168,.F.);
#136=ORIENTED_EDGE('',*,*,#204,.F.);
#137=ORIENTED_EDGE('',*,*,#209,.T.);
#138=ORIENTED_EDGE('',*,*,#202,.T.);
#139=ORIENTED_EDGE('',*,*,#197,.T.);
#140=ORIENTED_EDGE('',*,*,#209,.F.);
#141=ORIENTED_EDGE('',*,*,#203,.F.);
#142=ORIENTED_EDGE('',*,*,#160,.T.);
#143=ORIENTED_EDGE('',*,*,#184,.F.);
#144=ORIENTED_EDGE('',*,*,#210,.F.);
#145=ORIENTED_EDGE('',*,*,#182,.T.);
#146=ORIENTED_EDGE('',*,*,#207,.T.);
#147=ORIENTED_EDGE('',*,*,#210,.T.);
#148=ORIENTED_EDGE('',*,*,#183,.F.);
#149=ORIENTED_EDGE('',*,*,#156,.T.);
#150=ORIENTED_EDGE('',*,*,#191,.F.);
#151=ORIENTED_EDGE('',*,*,#211,.F.);
#152=ORIENTED_EDGE('',*,*,#189,.T.);
#153=ORIENTED_EDGE('',*,*,#190,.F.);
#154=ORIENTED_EDGE('',*,*,#211,.T.);
#155=ORIENTED_EDGE('',*,*,#199,.T.);
#156=EDGE_CURVE('',#212,#213,#252,.T.);
#157=EDGE_CURVE('',#212,#214,#20,.T.);
#158=EDGE_CURVE('',#215,#214,#253,.T.);
#159=EDGE_CURVE('',#215,#216,#21,.T.);
#160=EDGE_CURVE('',#217,#216,#254,.T.);
#161=EDGE_CURVE('',#218,#217,#22,.T.);
#162=EDGE_CURVE('',#219,#218,#255,.T.);
#163=EDGE_CURVE('',#220,#219,#23,.T.);
#164=EDGE_CURVE('',#220,#221,#256,.T.);
#165=EDGE_CURVE('',#221,#222,#24,.T.);
#166=EDGE_CURVE('',#222,#223,#257,.T.);
#167=EDGE_CURVE('',#223,#224,#25,.T.);
#168=EDGE_CURVE('',#224,#225,#258,.T.);
#169=EDGE_CURVE('',#226,#225,#26,.T.);
#170=EDGE_CURVE('',#227,#226,#259,.T.);
#171=EDGE_CURVE('',#213,#227,#27,.T.);
#172=EDGE_CURVE('',#228,#222,#260,.T.);
#173=EDGE_CURVE('',#228,#229,#261,.T.);
#174=EDGE_CURVE('',#229,#223,#262,.T.);
#175=EDGE_CURVE('',#230,#221,#263,.T.);
#176=EDGE_CURVE('',#230,#231,#28,.T.);
#177=EDGE_CURVE('',#231,#220,#264,.T.);
#178=EDGE_CURVE('',#232,#219,#265,.T.);
#179=EDGE_CURVE('',#228,#232,#29,.T.);
#180=EDGE_CURVE('',#233,#218,#266,.T.);
#181=EDGE_CURVE('',#232,#233,#267,.T.);
#182=EDGE_CURVE('',#234,#217,#268,.T.);
#183=EDGE_CURVE('',#234,#235,#30,.T.);
#184=EDGE_CURVE('',#235,#216,#269,.T.);
#185=EDGE_CURVE('',#236,#215,#270,.T.);
#186=EDGE_CURVE('',#233,#236,#31,.T.);
#187=EDGE_CURVE('',#237,#214,#271,.T.);
#188=EDGE_CURVE('',#236,#237,#272,.T.);
#189=EDGE_CURVE('',#238,#212,#273,.T.);
#190=EDGE_CURVE('',#238,#239,#32,.T.);
#191=EDGE_CURVE('',#239,#213,#274,.T.);
#192=EDGE_CURVE('',#240,#227,#275,.T.);
#193=EDGE_CURVE('',#237,#240,#33,.T.);
#194=EDGE_CURVE('',#241,#226,#276,.T.);
#195=EDGE_CURVE('',#240,#241,#277,.T.);
#196=EDGE_CURVE('',#242,#242,#34,.T.);
#197=EDGE_CURVE('',#243,#243,#35,.T.);
#198=EDGE_CURVE('',#244,#244,#36,.T.);
#199=EDGE_CURVE('',#245,#245,#37,.T.);
#200=EDGE_CURVE('',#246,#246,#38,.T.);
#201=EDGE_CURVE('',#247,#247,#39,.T.);
#202=EDGE_CURVE('',#248,#225,#278,.T.);
#203=EDGE_CURVE('',#248,#249,#40,.T.);
#204=EDGE_CURVE('',#249,#224,#279,.T.);
#205=EDGE_CURVE('',#241,#229,#41,.T.);
#206=EDGE_CURVE('',#250,#250,#42,.T.);
#207=EDGE_CURVE('',#251,#251,#43,.T.);
#208=EDGE_CURVE('',#231,#230,#280,.T.);
#209=EDGE_CURVE('',#249,#248,#281,.T.);
#210=EDGE_CURVE('',#234,#235,#282,.T.);
#211=EDGE_CURVE('',#238,#239,#283,.T.);
#212=VERTEX_POINT('',#608);
#213=VERTEX_POINT('',#609);
#214=VERTEX_POINT('',#611);
#215=VERTEX_POINT('',#613);
#216=VERTEX_POINT('',#615);
#217=VERTEX_POINT('',#617);
#218=VERTEX_POINT('',#619);
#219=VERTEX_POINT('',#621);
#220=VERTEX_POINT('',#623);
#221=VERTEX_POINT('',#625);
#222=VERTEX_POINT('',#627);
#223=VERTEX_POINT('',#629);
#224=VERTEX_POINT('',#631);
#225=VERTEX_POINT('',#633);
#226=VERTEX_POINT('',#635);
#227=VERTEX_POINT('',#637);
#228=VERTEX_POINT('',#641);
#229=VERTEX_POINT('',#643);
#230=VERTEX_POINT('',#647);
#231=VERTEX_POINT('',#649);
#232=VERTEX_POINT('',#652);
#233=VERTEX_POINT('',#656);
#234=VERTEX_POINT('',#660);
#235=VERTEX_POINT('',#662);
#236=VERTEX_POINT('',#665);
#237=VERTEX_POINT('',#669);
#238=VERTEX_POINT('',#673);
#239=VERTEX_POINT('',#675);
#240=VERTEX_POINT('',#678);
#241=VERTEX_POINT('',#682);
#242=VERTEX_POINT('',#686);
#243=VERTEX_POINT('',#688);
#244=VERTEX_POINT('',#691);
#245=VERTEX_POINT('',#693);
#246=VERTEX_POINT('',#696);
#247=VERTEX_POINT('',#698);
#248=VERTEX_POINT('',#701);
#249=VERTEX_POINT('',#703);
#250=VERTEX_POINT('',#708);
#251=VERTEX_POINT('',#710);
#252=LINE('',#607,#284);
#253=LINE('',#612,#285);
#254=LINE('',#616,#286);
#255=LINE('',#620,#287);
#256=LINE('',#624,#288);
#257=LINE('',#628,#289);
#258=LINE('',#632,#290);
#259=LINE('',#636,#291);
#260=LINE('',#640,#292);
#261=LINE('',#642,#293);
#262=LINE('',#644,#294);
#263=LINE('',#646,#295);
#264=LINE('',#650,#296);
#265=LINE('',#651,#297);
#266=LINE('',#655,#298);
#267=LINE('',#657,#299);
#268=LINE('',#659,#300);
#269=LINE('',#663,#301);
#270=LINE('',#664,#302);
#271=LINE('',#668,#303);
#272=LINE('',#670,#304);
#273=LINE('',#672,#305);
#274=LINE('',#676,#306);
#275=LINE('',#677,#307);
#276=LINE('',#681,#308);
#277=LINE('',#683,#309);
#278=LINE('',#700,#310);
#279=LINE('',#704,#311);
#280=LINE('',#713,#312);
#281=LINE('',#716,#313);
#282=LINE('',#719,#314);
#283=LINE('',#722,#315);
#284=VECTOR('',#483,1.);
#285=VECTOR('',#486,1.);
#286=VECTOR('',#489,1.);
#287=VECTOR('',#492,1.);
#288=VECTOR('',#495,1.);
#289=VECTOR('',#498,1.);
#290=VECTOR('',#501,1.);
#291=VECTOR('',#504,1.);
#292=VECTOR('',#509,1.);
#293=VECTOR('',#510,1.);
#294=VECTOR('',#511,1.);
#295=VECTOR('',#514,1.);
#296=VECTOR('',#517,1.);
#297=VECTOR('',#518,1.);
#298=VECTOR('',#523,1.);
#299=VECTOR('',#524,1.);
#300=VECTOR('',#527,1.);
#301=VECTOR('',#530,1.);
#302=VECTOR('',#531,1.);
#303=VECTOR('',#536,1.);
#304=VECTOR('',#537,1.);
#305=VECTOR('',#540,1.);
#306=VECTOR('',#543,1.);
#307=VECTOR('',#544,1.);
#308=VECTOR('',#549,1.);
#309=VECTOR('',#550,1.);
#310=VECTOR('',#571,1.);
#311=VECTOR('',#574,1.);
#312=VECTOR('',#587,1.);
#313=VECTOR('',#592,1.);
#314=VECTOR('',#597,1.);
#315=VECTOR('',#602,1.);
#316=EDGE_LOOP('',(#44,#45,#46,#47,#48,#49,#50,#51,#52,#53,#54,#55,#56,
#57,#58,#59));
#317=EDGE_LOOP('',(#60,#61,#62,#63));
#318=EDGE_LOOP('',(#64,#65,#66,#67,#68,#69,#70,#71));
#319=EDGE_LOOP('',(#72,#73,#74,#75));
#320=EDGE_LOOP('',(#76,#77,#78,#79,#80,#81,#82,#83));
#321=EDGE_LOOP('',(#84,#85,#86,#87));
#322=EDGE_LOOP('',(#88,#89,#90,#91,#92,#93,#94,#95));
#323=EDGE_LOOP('',(#96,#97,#98,#99));
#324=EDGE_LOOP('',(#100));
#325=EDGE_LOOP('',(#101));
#326=EDGE_LOOP('',(#102));
#327=EDGE_LOOP('',(#103));
#328=EDGE_LOOP('',(#104));
#329=EDGE_LOOP('',(#105));
#330=EDGE_LOOP('',(#106,#107,#108,#109,#110,#111,#112,#113));
#331=EDGE_LOOP('',(#114));
#332=EDGE_LOOP('',(#115));
#333=EDGE_LOOP('',(#116,#117,#118,#119,#120,#121,#122,#123));
#334=EDGE_LOOP('',(#124));
#335=EDGE_LOOP('',(#125));
#336=EDGE_LOOP('',(#126));
#337=EDGE_LOOP('',(#127));
#338=EDGE_LOOP('',(#128,#129,#130,#131));
#339=EDGE_LOOP('',(#132,#133));
#340=EDGE_LOOP('',(#134));
#341=EDGE_LOOP('',(#135,#136,#137,#138));
#342=EDGE_LOOP('',(#139));
#343=EDGE_LOOP('',(#140,#141));
#344=EDGE_LOOP('',(#142,#143,#144,#145));
#345=EDGE_LOOP('',(#146));
#346=EDGE_LOOP('',(#147,#148));
#347=EDGE_LOOP('',(#149,#150,#151,#152));
#348=EDGE_LOOP('',(#153,#154));
#349=EDGE_LOOP('',(#155));
#350=FACE_BOUND('',#316,.T.);
#351=FACE_BOUND('',#317,.T.);
#352=FACE_BOUND('',#318,.T.);
#353=FACE_BOUND('',#319,.T.);
#354=FACE_BOUND('',#320,.T.);
#355=FACE_BOUND('',#321,.T.);
#356=FACE_BOUND('',#322,.T.);
#357=FACE_BOUND('',#323,.T.);
#358=FACE_BOUND('',#324,.T.);
#359=FACE_BOUND('',#325,.T.);
#360=FACE_BOUND('',#326,.T.);
#361=FACE_BOUND('',#327,.T.);
#362=FACE_BOUND('',#328,.T.);
#363=FACE_BOUND('',#329,.T.);
#364=FACE_BOUND('',#330,.T.);
#365=FACE_BOUND('',#331,.T.);
#366=FACE_BOUND('',#332,.T.);
#367=FACE_BOUND('',#333,.T.);
#368=FACE_BOUND('',#334,.T.);
#369=FACE_BOUND('',#335,.T.);
#370=FACE_BOUND('',#336,.T.);
#371=FACE_BOUND('',#337,.T.);
#372=FACE_BOUND('',#338,.T.);
#373=FACE_BOUND('',#339,.T.);
#374=FACE_BOUND('',#340,.T.);
#375=FACE_BOUND('',#341,.T.);
#376=FACE_BOUND('',#342,.T.);
#377=FACE_BOUND('',#343,.T.);
#378=FACE_BOUND('',#344,.T.);
#379=FACE_BOUND('',#345,.T.);
#380=FACE_BOUND('',#346,.T.);
#381=FACE_BOUND('',#347,.T.);
#382=FACE_BOUND('',#348,.T.);
#383=FACE_BOUND('',#349,.T.);
#384=PLANE('',#433);
#385=PLANE('',#442);
#386=PLANE('',#446);
#387=PLANE('',#450);
#388=PLANE('',#454);
#389=PLANE('',#470);
#390=PLANE('',#471);
#391=PLANE('',#472);
#392=PLANE('',#473);
#393=PLANE('',#474);
#394=PLANE('',#475);
#395=PLANE('',#476);
#396=PLANE('',#477);
#397=PLANE('',#478);
#398=ADVANCED_FACE('',(#350),#384,.F.);
#399=ADVANCED_FACE('',(#351),#385,.T.);
#400=ADVANCED_FACE('',(#352),#12,.T.);
#401=ADVANCED_FACE('',(#353),#386,.F.);
#402=ADVANCED_FACE('',(#354),#13,.T.);
#403=ADVANCED_FACE('',(#355),#387,.F.);
#404=ADVANCED_FACE('',(#356),#14,.T.);
#405=ADVANCED_FACE('',(#357),#388,.F.);
#406=ADVANCED_FACE('',(#358,#359),#15,.F.);
#407=ADVANCED_FACE('',(#360,#361),#16,.F.);
#408=ADVANCED_FACE('',(#362,#363),#17,.F.);
#409=ADVANCED_FACE('',(#364),#18,.T.);
#410=ADVANCED_FACE('',(#365,#366),#19,.F.);
#411=ADVANCED_FACE('',(#367,#368,#369,#370,#371),#389,.T.);
#412=ADVANCED_FACE('',(#372),#390,.T.);
#413=ADVANCED_FACE('',(#373,#374),#391,.F.);
#414=ADVANCED_FACE('',(#375),#392,.T.);
#415=ADVANCED_FACE('',(#376,#377),#393,.F.);
#416=ADVANCED_FACE('',(#378),#394,.F.);
#417=ADVANCED_FACE('',(#379,#380),#395,.F.);
#418=ADVANCED_FACE('',(#381),#396,.F.);
#419=ADVANCED_FACE('',(#382,#383),#397,.F.);
#420=CLOSED_SHELL('',(#398,#399,#400,#401,#402,#403,#404,#405,#406,#407,
#408,#409,#410,#411,#412,#413,#414,#415,#416,#417,#418,#419));
#421=STYLED_ITEM('',(#422),#429);
#422=PRESENTATION_STYLE_ASSIGNMENT((#423));
#423=SURFACE_STYLE_USAGE(.BOTH.,#424);
#424=SURFACE_SIDE_STYLE('',(#425));
#425=SURFACE_STYLE_FILL_AREA(#426);
#426=FILL_AREA_STYLE('',(#427));
#427=FILL_AREA_STYLE_COLOUR('',#428);
#428=COLOUR_RGB('',0.615686274509804,0.811764705882353,0.929411764705882);
#429=MANIFOLD_SOLID_BREP('Part 1',#420);
#430=SHAPE_DEFINITION_REPRESENTATION(#730,#431);
#431=SHAPE_REPRESENTATION('Part 1',(#432),#725);
#432=AXIS2_PLACEMENT_3D('',#605,#479,#480);
#433=AXIS2_PLACEMENT_3D('',#606,#481,#482);
#434=AXIS2_PLACEMENT_3D('',#610,#484,#485);
#435=AXIS2_PLACEMENT_3D('',#614,#487,#488);
#436=AXIS2_PLACEMENT_3D('',#618,#490,#491);
#437=AXIS2_PLACEMENT_3D('',#622,#493,#494);
#438=AXIS2_PLACEMENT_3D('',#626,#496,#497);
#439=AXIS2_PLACEMENT_3D('',#630,#499,#500);
#440=AXIS2_PLACEMENT_3D('',#634,#502,#503);
#441=AXIS2_PLACEMENT_3D('',#638,#505,#506);
#442=AXIS2_PLACEMENT_3D('',#639,#507,#508);
#443=AXIS2_PLACEMENT_3D('',#645,#512,#513);
#444=AXIS2_PLACEMENT_3D('',#648,#515,#516);
#445=AXIS2_PLACEMENT_3D('',#653,#519,#520);
#446=AXIS2_PLACEMENT_3D('',#654,#521,#522);
#447=AXIS2_PLACEMENT_3D('',#658,#525,#526);
#448=AXIS2_PLACEMENT_3D('',#661,#528,#529);
#449=AXIS2_PLACEMENT_3D('',#666,#532,#533);
#450=AXIS2_PLACEMENT_3D('',#667,#534,#535);
#451=AXIS2_PLACEMENT_3D('',#671,#538,#539);
#452=AXIS2_PLACEMENT_3D('',#674,#541,#542);
#453=AXIS2_PLACEMENT_3D('',#679,#545,#546);
#454=AXIS2_PLACEMENT_3D('',#680,#547,#548);
#455=AXIS2_PLACEMENT_3D('',#684,#551,#552);
#456=AXIS2_PLACEMENT_3D('',#685,#553,#554);
#457=AXIS2_PLACEMENT_3D('',#687,#555,#556);
#458=AXIS2_PLACEMENT_3D('',#689,#557,#558);
#459=AXIS2_PLACEMENT_3D('',#690,#559,#560);
#460=AXIS2_PLACEMENT_3D('',#692,#561,#562);
#461=AXIS2_PLACEMENT_3D('',#694,#563,#564);
#462=AXIS2_PLACEMENT_3D('',#695,#565,#566);
#463=AXIS2_PLACEMENT_3D('',#697,#567,#568);
#464=AXIS2_PLACEMENT_3D('',#699,#569,#570);
#465=AXIS2_PLACEMENT_3D('',#702,#572,#573);
#466=AXIS2_PLACEMENT_3D('',#705,#575,#576);
#467=AXIS2_PLACEMENT_3D('',#706,#577,#578);
#468=AXIS2_PLACEMENT_3D('',#707,#579,#580);
#469=AXIS2_PLACEMENT_3D('',#709,#581,#582);
#470=AXIS2_PLACEMENT_3D('',#711,#583,#584);
#471=AXIS2_PLACEMENT_3D('',#712,#585,#586);
#472=AXIS2_PLACEMENT_3D('',#714,#588,#589);
#473=AXIS2_PLACEMENT_3D('',#715,#590,#591);
#474=AXIS2_PLACEMENT_3D('',#717,#593,#594);
#475=AXIS2_PLACEMENT_3D('',#718,#595,#596);
#476=AXIS2_PLACEMENT_3D('',#720,#598,#599);
#477=AXIS2_PLACEMENT_3D('',#721,#600,#601);
#478=AXIS2_PLACEMENT_3D('',#723,#603,#604);
#479=DIRECTION('',(0.,0.,1.));
#480=DIRECTION('',(1.,0.,0.));
#481=DIRECTION('',(0.,0.,1.));
#482=DIRECTION('',(1.,0.,0.));
#483=DIRECTION('',(1.,0.,0.));
#484=DIRECTION('',(0.,0.,1.));
#485=DIRECTION('',(1.,0.,0.));
#486=DIRECTION('',(1.,0.,0.));
#487=DIRECTION('',(0.,0.,1.));
#488=DIRECTION('',(1.,0.,0.));
#489=DIRECTION('',(1.,0.,0.));
#490=DIRECTION('',(0.,0.,1.));
#491=DIRECTION('',(1.,0.,0.));
#492=DIRECTION('',(0.,-1.,0.));
#493=DIRECTION('',(0.,0.,1.));
#494=DIRECTION('',(1.,0.,0.));
#495=DIRECTION('',(1.,0.,0.));
#496=DIRECTION('',(0.,0.,1.));
#497=DIRECTION('',(1.,0.,0.));
#498=DIRECTION('',(1.,0.,0.));
#499=DIRECTION('',(0.,0.,1.));
#500=DIRECTION('',(1.,0.,0.));
#501=DIRECTION('',(1.,0.,0.));
#502=DIRECTION('',(0.,0.,1.));
#503=DIRECTION('',(1.,0.,0.));
#504=DIRECTION('',(0.,1.,0.));
#505=DIRECTION('',(0.,0.,1.));
#506=DIRECTION('',(1.,0.,0.));
#507=DIRECTION('',(0.,1.,0.));
#508=DIRECTION('',(0.,0.,1.));
#509=DIRECTION('',(0.,0.,-1.));
#510=DIRECTION('',(1.,0.,0.));
#511=DIRECTION('',(0.,0.,-1.));
#512=DIRECTION('',(0.,0.,-1.));
#513=DIRECTION('',(-1.,0.,0.));
#514=DIRECTION('',(0.,0.,1.));
#515=DIRECTION('',(0.,0.,1.));
#516=DIRECTION('',(1.,0.,0.));
#517=DIRECTION('',(0.,0.,1.));
#518=DIRECTION('',(0.,0.,-1.));
#519=DIRECTION('',(0.,0.,1.));
#520=DIRECTION('',(1.,0.,0.));
#521=DIRECTION('',(1.,0.,0.));
#522=DIRECTION('',(0.,0.,-1.));
#523=DIRECTION('',(0.,0.,-1.));
#524=DIRECTION('',(0.,-1.,0.));
#525=DIRECTION('',(0.,0.,-1.));
#526=DIRECTION('',(-1.,0.,0.));
#527=DIRECTION('',(0.,0.,1.));
#528=DIRECTION('',(0.,0.,1.));
#529=DIRECTION('',(1.,0.,0.));
#530=DIRECTION('',(0.,0.,1.));
#531=DIRECTION('',(0.,0.,-1.));
#532=DIRECTION('',(0.,0.,1.));
#533=DIRECTION('',(1.,0.,0.));
#534=DIRECTION('',(0.,1.,0.));
#535=DIRECTION('',(0.,0.,1.));
#536=DIRECTION('',(0.,0.,-1.));
#537=DIRECTION('',(1.,0.,0.));
#538=DIRECTION('',(0.,0.,-1.));
#539=DIRECTION('',(-1.,0.,0.));
#540=DIRECTION('',(0.,0.,1.));
#541=DIRECTION('',(0.,0.,1.));
#542=DIRECTION('',(1.,0.,0.));
#543=DIRECTION('',(0.,0.,1.));
#544=DIRECTION('',(0.,0.,-1.));
#545=DIRECTION('',(0.,0.,1.));
#546=DIRECTION('',(1.,0.,0.));
#547=DIRECTION('',(-1.,0.,0.));
#548=DIRECTION('',(0.,0.,1.));
#549=DIRECTION('',(0.,0.,-1.));
#550=DIRECTION('',(0.,1.,0.));
#551=DIRECTION('',(0.,0.,-1.));
#552=DIRECTION('',(-1.,0.,0.));
#553=DIRECTION('',(0.,0.,1.));
#554=DIRECTION('',(1.,0.,0.));
#555=DIRECTION('',(0.,0.,1.));
#556=DIRECTION('',(1.,0.,0.));
#557=DIRECTION('',(0.,0.,-1.));
#558=DIRECTION('',(-1.,0.,0.));
#559=DIRECTION('',(0.,0.,1.));
#560=DIRECTION('',(1.,0.,0.));
#561=DIRECTION('',(0.,0.,1.));
#562=DIRECTION('',(1.,0.,0.));
#563=DIRECTION('',(0.,0.,-1.));
#564=DIRECTION('',(-1.,0.,0.));
#565=DIRECTION('',(0.,0.,1.));
#566=DIRECTION('',(1.,0.,0.));
#567=DIRECTION('',(0.,0.,1.));
#568=DIRECTION('',(1.,0.,0.));
#569=DIRECTION('',(0.,0.,-1.));
#570=DIRECTION('',(-1.,0.,0.));
#571=DIRECTION('',(0.,0.,1.));
#572=DIRECTION('',(0.,0.,1.));
#573=DIRECTION('',(1.,0.,0.));
#574=DIRECTION('',(0.,0.,1.));
#575=DIRECTION('',(0.,0.,1.));
#576=DIRECTION('',(1.,0.,0.));
#577=DIRECTION('',(0.,0.,-1.));
#578=DIRECTION('',(-1.,0.,0.));
#579=DIRECTION('',(0.,0.,1.));
#580=DIRECTION('',(1.,0.,0.));
#581=DIRECTION('',(0.,0.,1.));
#582=DIRECTION('',(1.,0.,0.));
#583=DIRECTION('',(0.,0.,1.));
#584=DIRECTION('',(1.,0.,0.));
#585=DIRECTION('',(0.,-1.,0.));
#586=DIRECTION('',(0.,0.,-1.));
#587=DIRECTION('',(1.,0.,0.));
#588=DIRECTION('',(0.,0.,1.));
#589=DIRECTION('',(1.,0.,0.));
#590=DIRECTION('',(0.,-1.,0.));
#591=DIRECTION('',(0.,0.,-1.));
#592=DIRECTION('',(1.,0.,0.));
#593=DIRECTION('',(0.,0.,1.));
#594=DIRECTION('',(1.,0.,0.));
#595=DIRECTION('',(0.,-1.,0.));
#596=DIRECTION('',(0.,0.,-1.));
#597=DIRECTION('',(1.,0.,0.));
#598=DIRECTION('',(0.,0.,1.));
#599=DIRECTION('',(1.,0.,0.));
#600=DIRECTION('',(0.,-1.,0.));
#601=DIRECTION('',(0.,0.,-1.));
#602=DIRECTION('',(1.,0.,0.));
#603=DIRECTION('',(0.,0.,1.));
#604=DIRECTION('',(1.,0.,0.));
#605=CARTESIAN_POINT('',(0.,0.,0.));
#606=CARTESIAN_POINT('',(-5.08751200889446E-11,5.08751339667324E-11,0.));
#607=CARTESIAN_POINT('',(0.0207300379943324,-0.00845128379078501,0.));
#608=CARTESIAN_POINT('',(0.0196850759886649,-0.00845128379078501,0.));
#609=CARTESIAN_POINT('',(0.0238649240113352,-0.00845128379078501,0.));
#610=CARTESIAN_POINT('',(0.021775,-0.0103889931670447,0.));
#611=CARTESIAN_POINT('',(0.018925,-0.0103889931670447,0.));
#612=CARTESIAN_POINT('',(-1.06272652032613E-8,-0.0103889931670448,0.));
#613=CARTESIAN_POINT('',(-0.0189250212545304,-0.0103889931670448,0.));
#614=CARTESIAN_POINT('',(-0.021775,-0.0104,0.));
#615=CARTESIAN_POINT('',(-0.0196953353308904,-0.00845128379078501,0.));
#616=CARTESIAN_POINT('',(-0.0207351676654452,-0.00845128379078501,0.));
#617=CARTESIAN_POINT('',(-0.0238546646691096,-0.00845128379078501,0.));
#618=CARTESIAN_POINT('',(-0.021775,-0.0104,0.));
#619=CARTESIAN_POINT('',(-0.021775,-0.00755,0.));
#620=CARTESIAN_POINT('',(-0.021775,-5.08751322320089E-11,0.));
#621=CARTESIAN_POINT('',(-0.021775,0.00754999989824974,0.));
#622=CARTESIAN_POINT('',(-0.021775,0.0104,0.));
#623=CARTESIAN_POINT('',(-0.0238546648085495,0.00845128379078501,0.));
#624=CARTESIAN_POINT('',(-0.0228148323345548,0.00845128379078501,0.));
#625=CARTESIAN_POINT('',(-0.0196953351914505,0.00845128379078501,0.));
#626=CARTESIAN_POINT('',(-0.021775,0.0104,0.));
#627=CARTESIAN_POINT('',(-0.0189249998982498,0.0104,0.));
#628=CARTESIAN_POINT('',(5.08751478445202E-11,0.0104,0.));
#629=CARTESIAN_POINT('',(0.018925,0.0104,0.));
#630=CARTESIAN_POINT('',(0.021775,0.0104,0.));
#631=CARTESIAN_POINT('',(0.0196953353308904,0.00845128379078501,0.));
#632=CARTESIAN_POINT('',(0.0207351676654452,0.00845128379078501,0.));
#633=CARTESIAN_POINT('',(0.0238546646691096,0.00845128379078501,0.));
#634=CARTESIAN_POINT('',(0.021775,0.0104,0.));
#635=CARTESIAN_POINT('',(0.021775,0.00755,0.));
#636=CARTESIAN_POINT('',(0.021775,5.50341647762454E-6,0.));
#637=CARTESIAN_POINT('',(0.021775,-0.00753899316704476,0.));
#638=CARTESIAN_POINT('',(0.021775,-0.0103889931670447,0.));
#639=CARTESIAN_POINT('',(5.08751478445202E-11,0.0104,0.004));
#640=CARTESIAN_POINT('',(-0.0189249998982498,0.0103999999999999,0.004));
#641=CARTESIAN_POINT('',(-0.0189249998982498,0.0103999999999999,0.004));
#642=CARTESIAN_POINT('',(5.08751478445202E-11,0.0104,0.004));
#643=CARTESIAN_POINT('',(0.018925,0.0104,0.004));
#644=CARTESIAN_POINT('',(0.018925,0.0104,0.004));
#645=CARTESIAN_POINT('',(-0.021775,0.0104,0.004));
#646=CARTESIAN_POINT('',(-0.0196953351914505,0.00845128379078501,-0.004));
#647=CARTESIAN_POINT('',(-0.0196953351914505,0.00845128379078501,-0.004));
#648=CARTESIAN_POINT('',(-0.021775,0.0104,-0.004));
#649=CARTESIAN_POINT('',(-0.0238546648085495,0.00845128379078501,-0.004));
#650=CARTESIAN_POINT('',(-0.0238546648085495,0.00845128379078501,-0.004));
#651=CARTESIAN_POINT('',(-0.021775,0.00754999989824974,0.004));
#652=CARTESIAN_POINT('',(-0.021775,0.00754999989824974,0.004));
#653=CARTESIAN_POINT('',(-0.021775,0.0104,0.004));
#654=CARTESIAN_POINT('',(-0.021775,-5.08751322320089E-11,0.004));
#655=CARTESIAN_POINT('',(-0.021775,-0.00755,0.004));
#656=CARTESIAN_POINT('',(-0.021775,-0.00755,0.004));
#657=CARTESIAN_POINT('',(-0.021775,-5.08751322320089E-11,0.004));
#658=CARTESIAN_POINT('',(-0.021775,-0.0104,0.004));
#659=CARTESIAN_POINT('',(-0.0238546646691096,-0.00845128379078501,-0.004));
#660=CARTESIAN_POINT('',(-0.0238546646691096,-0.00845128379078501,-0.004));
#661=CARTESIAN_POINT('',(-0.021775,-0.0104,-0.004));
#662=CARTESIAN_POINT('',(-0.0196953353308904,-0.00845128379078501,-0.004));
#663=CARTESIAN_POINT('',(-0.0196953353308904,-0.00845128379078501,-0.004));
#664=CARTESIAN_POINT('',(-0.0189250212545304,-0.0103889931670448,0.004));
#665=CARTESIAN_POINT('',(-0.0189250212545304,-0.0103889931670448,0.004));
#666=CARTESIAN_POINT('',(-0.021775,-0.0104,0.004));
#667=CARTESIAN_POINT('',(-1.06272652032613E-8,-0.0103889931670448,0.004));
#668=CARTESIAN_POINT('',(0.018925,-0.0103889931670447,0.004));
#669=CARTESIAN_POINT('',(0.018925,-0.0103889931670447,0.004));
#670=CARTESIAN_POINT('',(-1.06272652032613E-8,-0.0103889931670448,0.004));
#671=CARTESIAN_POINT('',(0.021775,-0.0103889931670447,0.004));
#672=CARTESIAN_POINT('',(0.0196850759886649,-0.00845128379078501,-0.004));
#673=CARTESIAN_POINT('',(0.0196850759886649,-0.00845128379078501,-0.004));
#674=CARTESIAN_POINT('',(0.021775,-0.0103889931670447,-0.004));
#675=CARTESIAN_POINT('',(0.0238649240113352,-0.00845128379078501,-0.004));
#676=CARTESIAN_POINT('',(0.0238649240113352,-0.00845128379078501,-0.004));
#677=CARTESIAN_POINT('',(0.021775,-0.00753899316704476,0.004));
#678=CARTESIAN_POINT('',(0.021775,-0.00753899316704476,0.004));
#679=CARTESIAN_POINT('',(0.021775,-0.0103889931670447,0.004));
#680=CARTESIAN_POINT('',(0.021775,5.50341647762454E-6,0.004));
#681=CARTESIAN_POINT('',(0.021775,0.00755,0.004));
#682=CARTESIAN_POINT('',(0.021775,0.00755,0.004));
#683=CARTESIAN_POINT('',(0.021775,5.50341647762454E-6,0.004));
#684=CARTESIAN_POINT('',(0.021775,0.0104,0.004));
#685=CARTESIAN_POINT('',(0.021775,0.0104,0.004));
#686=CARTESIAN_POINT('',(0.023125,0.0104,0.004));
#687=CARTESIAN_POINT('',(0.021775,0.0104,-0.004));
#688=CARTESIAN_POINT('',(0.023125,0.0104,-0.004));
#689=CARTESIAN_POINT('',(0.021775,-0.0103889931670448,0.004));
#690=CARTESIAN_POINT('',(0.021775,-0.0103889931670448,0.004));
#691=CARTESIAN_POINT('',(0.023125,-0.0103889931670448,0.004));
#692=CARTESIAN_POINT('',(0.021775,-0.0103889931670448,-0.004));
#693=CARTESIAN_POINT('',(0.023125,-0.0103889931670448,-0.004));
#694=CARTESIAN_POINT('',(-0.021775,0.0104,0.004));
#695=CARTESIAN_POINT('',(-0.021775,0.0104,0.004));
#696=CARTESIAN_POINT('',(-0.020425,0.0104,0.004));
#697=CARTESIAN_POINT('',(-0.021775,0.0104,-0.004));
#698=CARTESIAN_POINT('',(-0.020425,0.0104,-0.004));
#699=CARTESIAN_POINT('',(0.021775,0.0104,0.004));
#700=CARTESIAN_POINT('',(0.0238546646691096,0.00845128379078501,-0.004));
#701=CARTESIAN_POINT('',(0.0238546646691096,0.00845128379078501,-0.004));
#702=CARTESIAN_POINT('',(0.021775,0.0104,-0.004));
#703=CARTESIAN_POINT('',(0.0196953353308904,0.00845128379078501,-0.004));
#704=CARTESIAN_POINT('',(0.0196953353308904,0.00845128379078501,-0.004));
#705=CARTESIAN_POINT('',(0.021775,0.0104,0.004));
#706=CARTESIAN_POINT('',(-0.021775,-0.0104,0.004));
#707=CARTESIAN_POINT('',(-0.021775,-0.0104,0.004));
#708=CARTESIAN_POINT('',(-0.020425,-0.0104,0.004));
#709=CARTESIAN_POINT('',(-0.021775,-0.0104,-0.004));
#710=CARTESIAN_POINT('',(-0.020425,-0.0104,-0.004));
#711=CARTESIAN_POINT('',(-5.08751200889446E-11,5.08751339667324E-11,0.004));
#712=CARTESIAN_POINT('',(-0.0228148323345548,0.00845128379078501,-0.004));
#713=CARTESIAN_POINT('',(-0.0228148323345548,0.00845128379078501,-0.004));
#714=CARTESIAN_POINT('',(-5.08751200889446E-11,5.08751339667324E-11,-0.004));
#715=CARTESIAN_POINT('',(0.0207351676654452,0.00845128379078501,-0.004));
#716=CARTESIAN_POINT('',(0.0207351676654452,0.00845128379078501,-0.004));
#717=CARTESIAN_POINT('',(-5.08751200889446E-11,5.08751339667324E-11,-0.004));
#718=CARTESIAN_POINT('',(-0.0207351676654452,-0.00845128379078501,-0.004));
#719=CARTESIAN_POINT('',(-0.0207351676654452,-0.00845128379078501,-0.004));
#720=CARTESIAN_POINT('',(-5.08751200889446E-11,5.08751339667324E-11,-0.004));
#721=CARTESIAN_POINT('',(0.0207300379943324,-0.00845128379078501,-0.004));
#722=CARTESIAN_POINT('',(0.0207300379943324,-0.00845128379078501,-0.004));
#723=CARTESIAN_POINT('',(-5.08751200889446E-11,5.08751339667324E-11,-0.004));
#724=MECHANICAL_DESIGN_GEOMETRIC_PRESENTATION_REPRESENTATION('',(#421),
#725);
#725=(
GEOMETRIC_REPRESENTATION_CONTEXT(3)
GLOBAL_UNCERTAINTY_ASSIGNED_CONTEXT((#726))
GLOBAL_UNIT_ASSIGNED_CONTEXT((#729,#728,#727))
REPRESENTATION_CONTEXT('Part 1','TOP_LEVEL_ASSEMBLY_PART')
);
#726=UNCERTAINTY_MEASURE_WITH_UNIT(LENGTH_MEASURE(5.E-6),#729,
'DISTANCE_ACCURACY_VALUE','Maximum Tolerance applied to model');
#727=(
NAMED_UNIT(*)
SI_UNIT($,.STERADIAN.)
SOLID_ANGLE_UNIT()
);
#728=(
NAMED_UNIT(*)
PLANE_ANGLE_UNIT()
SI_UNIT($,.RADIAN.)
);
#729=(
LENGTH_UNIT()
NAMED_UNIT(*)
SI_UNIT($,.METRE.)
);
#730=PRODUCT_DEFINITION_SHAPE('','',#731);
#731=PRODUCT_DEFINITION('','',#733,#732);
#732=PRODUCT_DEFINITION_CONTEXT('',#739,'design');
#733=PRODUCT_DEFINITION_FORMATION_WITH_SPECIFIED_SOURCE('','',#735,
 .NOT_KNOWN.);
#734=PRODUCT_RELATED_PRODUCT_CATEGORY('','',(#735));
#735=PRODUCT('Part 1','Part 1','Part 1',(#737));
#736=PRODUCT_CATEGORY('','');
#737=PRODUCT_CONTEXT('',#739,'mechanical');
#738=APPLICATION_PROTOCOL_DEFINITION('international standard',
'ap242_managed_model_based_3d_engineering',2011,#739);
#739=APPLICATION_CONTEXT('managed model based 3d engineering');
ENDSEC;
END-ISO-10303-21;
